kullanıcı Adı:
�?ifre:
(�?ifremi unuttum)
(ayrıntılı giri�?)

Gönderen Konu: Unutamadım (Tab)  (Okunma sayısı 2462 defa)

0 Üye ve 1 Ziyaretçi konuyu incelemekte.

eeeee

  • *******
  • Teoman Classical

  • İleti: Ben bir ineğim!!
  • Üye Popülerliği +1/-1

  • Çevrimdışı
Unutamadım (Tab)
« : 28 Ağustos 2008, 18:28:32 »
Unutamadım (Tab)

E----------|-7------8-8-8-7----7-|
B---10-8--|--8------------10-8--|
G-9-------|---10-9---------------|
D---------|------------------------|
A---------|------------------------|
E---------|------------------------|

E-8-7--10-8-7-|-7----8-7---|------7--------------7-10-|
B---------------|--10-----10-|-10-8-... [Devamını Oku]


Ziyaretçi Ziyaretçi olduğunuz için mesajın tamamını ve konuya atılan cevapları göremiyorsunuz. Lütfen giriş yapın.

Eğer üye değilseniz, kayıt olmak için tıklayın.